Snow pt. 3 - Chords, Lyrics and Origins

Chords

Snow pt. 3

by Chris Rubeo

Capo 1

Drop D

E-------9-----------------------9------------2----------------x------x---------------

B-------0-----------------------0------------3----------------x------x---------------

G-------9-----------------------9------------2----------------x------0--------------

D-------0-----------------------0------------0----------------0------0--------------

A-------9-----------------------x------------0----------------0------2--------------

D-------0-----------------------9------------0----------------4------5--------------

         Dmaj9                    bm         DM                  (F#)   GM

        Hum, hum, a rowin' tune,  set soft against the pale moon

 

E-------2--------------x----------x------------2-------------------x-------------x-----

B-------3--------------x----------x------------3-------------------x-------------x----

G-------2--------------x----------0------------2-------------------x-------------0----

D-------0--------------0----------0------------0-------------------0-------------0----

A-------0--------------0----------2------------0-------------------0-------------2----

D-------0--------------4----------5------------0-------------------4-------------5---

           DM             (F#)       GM           DM                   (F#)            GM

           paling at the wild and blue, Dumbstruck gaping while she moves

   

E-------x--------------9-------------------------

B-------x--------------0-------------------------

G-------x--------------9------------------------

D-------0--------------0------------------------

A-------4--------------9------------------------

D-------7--------------0------------------------

         AM           Dmaj9

      where she moves

 

Chords

Dmaj9                       bm

Hum, hum, a rowin' tune

      DM                     (F#)  GM

set soft against the pale moon

DM                (F#)         GM

paling at the wild and blue

DM                          (F#)           GM      AM             Dmaj9

Dumbstruck gaping while she moves where she moves



              Dmaj9                                 bm

She was called, called to her winter tomb

DM                  (F#)  GM

Nestled in her bedroom

DM                             (F#)GM

Socks and a book and red hue

             AM                              Dmaj9

If you'd ask me I would rescue you

              Dmaj9                                     bm

She fell down laughing into a pile of snow

                  DM                       (F#)  GM

and said I wonder where the leaves go

                DM                   (F#)   GM

and how anything could ever grow

           AM                                         Dmaj9

in the frozen earth buried beneath the cold.

Lyrics

Oh now I've let this get into my head again

The ghost of a ghost of a friend of a friend

And I don't believe in you anymore

And I won't believe in you again

 

But lately I've been thinking of you

 

Since you left I've kept my place at the table

Planted trees in the yard for shade in the summer

And I don't believe in you anymore

And I won't believe in you again

 

But lately I've been thinking of you

Other Contemporary Folk Songs


Download Song Here