Brave - Chords, Lyrics and Origins

Chords

Brave

by Chris Rubeo

Drop D

Capo 3

Intro and Verse Chords

D----------5----------------x-------------------x-----------------

B----------3----------------3-------------------2-----------------

G----------0----------------0-------------------0----------------

D----------4----------------4-------------------2----------------

A----------5----------------x-------------------0-----------------

D----------0----------------5-------------------x-----------------

 

             DM              GMA7          A7

 

Chorus Chords

D----------5----------------x-----------------x-----------------

B----------3----------------3-----------------3---------------

G----------0----------------0-----------------0----------------

D----------4----------------4-----------------0----------------

A----------x----------------5-----------------3----------------

D----------5----------------x-----------------x--------------

            GM               DM                 CM

 

 

 

DM                                  GM      A7                     DM

Can you take tomorrow off?  I want to see the countryside

               GM       A7                        DM

I want to feel the breeze I haven't got the time

               GM       A7                  DM  

I haven't got the time I haven't got the energy

             GM              A7                  

Lets go some other time and oh

 

GM  DM

I wish you had told me

        CM                      GM     

your love for this had faded

                          DM

Shrugging your shoulders

           CM

Saying I was waiting

GM                    DM                

I wish you had told me

  CM                GM

Now I'm looking back again

Now I'm looking back again

 

DM                            GM  A7               DM

Can you take to my mistakes?  and like me anyway

                      GM              A7                      DM

I want to feel contained I want to see the country

                        GM                 A7           DM  

to sit and look inside you or just to sit beside you

                              GM              

to read my lover's thoughts

    A7                            DM

or love what I've been thinking

                             GM                        

I want you to feel brave

                             DM

I want you to feel brave

                             GM  

I want you to feel brave                           

                                  GM

I want you to feel so brave

 

 DM

I wish you had told me

        CM                      GM     

your love for this had faded

                          DM

Shrugging your shoulders

           CM

Saying I was waiting

GM                    DM                

I wish you had told me

  CM                GM

Now I'm looking back again

Now I'm looking back again

 

Other Contemporary Folk Songs


Download Song Here